Zahlenkette

Klingonisches Reich
Verfügbare Informationen zu "Zahlenkette"

  • Qualität des Beitrags: 0 Sterne
  • Beteiligte Poster: Frodo90 - Johnymc - picci
  • Forum: Klingonisches Reich
  • Forenbeschreibung: Das ist "Klingonisches Reich" unsere neue Allianz in die wir fusioniert sind.
  • aus dem Unterforum: Plauderecke
  • Antworten: 13
  • Forum gestartet am: Montag 25.12.2006
  • Sprache: deutsch
  • Link zum Originaltopic: Zahlenkette
  • Letzte Antwort: vor 15 Jahren, 6 Monaten, 8 Tagen, 23 Stunden, 15 Minuten
  • Alle Beiträge und Antworten zu "Zahlenkette"

    Re: Zahlenkette

    Frodo90 - 25.03.2007, 11:06

    Zahlenkette
    1 muhaha



    Re: Zahlenkette

    Johnymc - 25.03.2007, 14:11


    2 meine fresse das geht ja weiter :lol: :lol: :lol: :P :P :P



    Re: Zahlenkette

    Frodo90 - 25.03.2007, 22:02


    würd sagen das danach die 3 kommt

    ---3333333-----
    ---33333333----
    ---------3333----
    ---------3333----
    ----3333333-----
    ----3333333-----
    ---------3333----
    ---------3333----
    ---3333333------
    ---3333333------



    Re: Zahlenkette

    Johnymc - 26.03.2007, 20:58


    ----------------4----------
    --------------4-4----------
    ------------4---4----------
    ----------4-----4----------
    --------4-------4----------
    ------4---------4----------
    ------44444444444444
    ----------------4----------
    ----------------4----------
    ----------------4----------
    ----------------4----------
    ----------------4----------

    garnicht mal soooo schwer^^



    Re: Zahlenkette

    Frodo90 - 26.03.2007, 21:38


    ja so schwer is das nich aber wäre cooler wenn sich noch mehr beteiligen würegn also nur zu ich schreib ma ne ^^^^^^^^°°°°°°°°°°^^^^^^^^^^^^^^^^
    °°°°°°°°°5°°°°°°°°°°°°°°°°^^^^^^^^^^^^^^^5^^^^^^^^
    °°°°°°°°°°°°°°°°°°°°°°°°°°°°°^^^^^^^^^^^^^^^^^^^^^^^^^^^5
    ^^^^^^^^^^^^^^°°°°°°°°°°°°°°°°°°°°°°°°°°°°°°°°°°°°°°°5
    ^^^^^^^^^^^^^^^^^°°°°°°°°°°°°°°°°°°°°°°°°°°°°°°
    ^^^^^^^^^^^^^^^^^^°°5°°°°°°°°°°°°°°°°°°°°°°°°°°°°
    °°°°°°°°°°°°°°°°°°°°°°°°°5°°°°°°°°°°°°°°°^5^^^^^^^^^^^^^
    ^^^^^^^^^^^^^^^5^^^^°°°°°°°°°°°°°°°°°°°°°°°°°°5°°°
    °°°°°°°°5^^^^^^^^^^^^^^^^^^^^^^^^^^^^^^^^^^^
    ^^^^^^^



    Re: Zahlenkette

    Johnymc - 26.03.2007, 22:00


    Frodo90 hat folgendes geschrieben: ja so schwer is das nich aber wäre cooler wenn sich noch mehr beteiligen würegn also nur zu ich schreib ma ne ^^^^^^^^°°°°°°°°°°^^^^^^^^^^^^^^^^°°°°°°°°°5
    °°°°°°°°°°°°°°°°^^^^^^^^^^^^^^^5^^^^^^^^°°°°
    °°°°°°°°°°°°°°°°°°°°°°°°°^^^^^^^^^^^^^^^^^^^^^
    ^^^^^^5^^^^^^^^^^^^^^°°°°°°°°°°°°°°°°°°°°°°°°°
    °°°°°°°°°°°°°°5^^^^^^^^^^^^^^^^^°°°°°°°°°°°°°°°°°°
    °°°°°°°°°°°°^^^^^^^^^^^^^^^^^^°°5°°°°°°°°°°°°°°
    °°°°°°°°°°°°°°°°°°°°°°°°°°°°°°°°°°°°°°°5°°°°°°°°°°°°°°°
    ^5^^^^^^^^^^^^^^^^^^^^^^^^^^^^5^^^^°°°°
    °°°°°°°°°°°°°°°°°°°°°°5°°°°°°°°°°°5^^^^^^^^^^^^^^^
    ^^^^^^^^^^^^^^^^^^^^^^^^^^^

    ähm was soll den das sein? ^^
    bist du etwa nicht so oft im icq drine?



    Re: Zahlenkette

    Frodo90 - 27.03.2007, 17:44


    doch bin sehr oft im icq, aber das sollte eine 5 sein also kommt danach die ..........? das darf jemand anders schreiben was nach der 5 kommt. ^^



    Re: Zahlenkette

    picci - 27.03.2007, 18:15


    6????? :D



    Re: Zahlenkette

    Johnymc - 27.03.2007, 18:21


    genau mal sehen ob ich die 7 vom frodo als beispiel noch habe...................... na wo ist den des :? :?:
    .................... ah da ist es ja :P :lol: :lol:

    ------------------77777777777-----------------
    -------------------7777777777------------------
    -----------------------------777-------------------
    ----------------------------777--------------------
    ---------------------------777---------------------
    --------------------------777----------------------
    -------------------------777-----------------------
    ------------------------777------------------------
    -----------------------777-------------------------



    Re: Zahlenkette

    Frodo90 - 27.03.2007, 18:27


    na das war aber meine 7 gemein na auch egal dann nehme ich halt die

    >----------8------------<



    Re: Zahlenkette

    picci - 27.03.2007, 19:10


    :arrow: 9 8)



    Re: Zahlenkette

    Frodo90 - 28.03.2007, 12:02


    10 :shock:



    Re: Zahlenkette

    Johnymc - 28.03.2007, 18:21


    ----------11----------11------
    -------1111-------1111------
    ------11-11------11-11------
    ----11---11----11---11------
    ----------11----------11------
    ----------11----------11------
    ----------11----------11------
    ----------11----------11------
    ----------11----------11------
    ----------11----------11------
    ----------11----------11------
    ----------11----------11------



    Mit folgendem Code, können Sie den Beitrag ganz bequem auf ihrer Homepage verlinken



    Weitere Beiträge aus dem Forum Klingonisches Reich

    Bewerbung - gepostet von Anonymous am Mittwoch 07.03.2007
    Ally name! - gepostet von Pelle am Donnerstag 04.01.2007
    das ist bullshit für Lax - gepostet von Lax am Dienstag 10.04.2007



    Ähnliche Beiträge wie "Zahlenkette"

    Zahlenkette (weiterführung) - Anonymous (Montag 31.10.2005)
    Zahlenkette (1.Versuch) - trunks (Mittwoch 20.06.2007)
    Zahlenkette - ayshwara (Samstag 30.12.2006)
    Zahlenkette - Akki (Freitag 20.01.2006)
    ZAHLENKETTE^^ - Aerox hLr (Donnerstag 10.05.2007)
    Zahlenkette - chrissi (Montag 10.07.2006)
    Zahlenkette ... auf Römisch :[ - elmaex (Mittwoch 13.09.2006)
    Zahlenkette - Bassi (Donnerstag 05.01.2006)
    Zahlenkette - Darth Revan (Donnerstag 26.01.2006)
    Zahlenkette - MOZ (Mittwoch 28.03.2007)